mtb, triatlon, běh, výsledky

detailní výsledky závodu

Sušické slalomy, 3. ČP žáků - Sušice [ 20.05.06 ]

K1 ženy žáci mladší - 20.05.06

1.012048Hamplová Eva92ZS2Dukla B.
123456789101112131415161718
------------------ 0101.87 101.87 202.61
------------------ 0100.74 100.74


2.049030Zimová Marie92ZS2Roudnice
123456789101112131415161718
------------------ 0103.96 103.96 208.64
------------------ 0104.68 104.68


3.080004Zástěrová Pavlína93ZS2So Písek
123456789101112131415161718
------------------ 0105.71 105.71 210.88
------------------ 0105.17 105.17


4.009019Bustová Anna92ZS2USK Pha
123456789101112131415161718
-----2------------ 2105.31 107.31 211.35
------------------ 0104.04 104.04


5.133011Jordánová Pavlína92ZS2SKVeselí
123456789101112131415161718
------------------ 0109.89 109.89 218.45
---------------2-- 2106.56 108.56


6.121016Foltysová Denisa93ZS2KK Opava
123456789101112131415161718
-----------2--2--- 4108.6 112.60 219.17
------------------ 0106.57 106.57


7.019002Jančová Monika92ZS3Vlašim
123456789101112131415161718
--2--2------------ 4106.48 110.48 220.25
-----------------2 2107.77 109.77


8.049035Bendová Marie92ZS3Roudnice
123456789101112131415161718
-----------------2 2109.58 111.58 226.21
--2-2------------- 4110.63 114.63


9.133015Večerková Nina92ZS3SKVeselí
123456789101112131415161718
----2------------- 2114.06 116.06 228.00
-----2------------ 2109.94 111.94


10.009177Větrovská Aneta93ZS3USK Pha
123456789101112131415161718
------------------ 0123.19 123.19 242.69
------------2----- 2117.5 119.50


11.043010Svobodová Jana93ZS3Č.Lípa
123456789101112131415161718
---------------22- 4121.66 125.66 255.10
---2-2--2--------- 6123.44 129.44


12.043033Chodurová Dana92ZSČ.Lípa
123456789101112131415161718
--------------222- 6126.79 132.79 265.96
--2--2------22---- 8125.17 133.17


13.009024Soukupová Markéta92ZSUSK Pha
123456789101112131415161718
------------------ 0136.3 136.30 306.89
------2------2-2-- 6164.59 170.59


14.052069Blažeková Radka92ZSL.Žatec
123456789101112131415161718
--2--2-5050--2---250- 158155.8 313.80 473.68
--2--------2-22--- 8151.88 159.88


15.009052Koušová Tereza92ZSUSK Pha
123456789101112131415161718
2--250--50--22----502 160140.91 300.91 547.82
-2-------------22- 6240.91 246.91


16.119089Krausová Tereza93ZSOlomouc
123456789101112131415161718
-2-250--50-----2---- 106188.94 294.94 577.80
-2--2--50-------250- 106176.86 282.86


17.009057Sušánková Markéta92ZSUSK Pha
123456789101112131415161718
--2-22-50------2502- 110142.81 252.81 578.20
----2--225050----250- 158167.39 325.39


18.047012Lišková Monika93ZSKadaň
123456789101112131415161718
-2502502-50-2-22--50502 264175.23 439.23 730.67
--2-502--502--2--22- 112179.44 291.44


výsledky v pdf

výsledky v excelu

TREK Bobr Bike 2013 - děti

větší video