mtb, triatlon, běh, výsledky

detailní výsledky závodu

Sušické slalomy, 3. ČP žáků - Sušice [ 20.05.06 ]

C1 žáci mladší - 20.05.06

1.009152Říha Martin92ZS2USK Pha
123456789101112131415161718
------------------ 0102.35 102.35 204.34
------------------ 0101.99 101.99


2.119010Božek Radim92ZS2+Olomouc
123456789101112131415161718
--------2-2------- 4100.07 104.07 206.30
-----2------2----- 498.23 102.23


3.066001Hojda Jakub93ZS3Horš.Týn
123456789101112131415161718
--2------2-------- 4103.22 107.22 214.70
--2---------2----- 4103.48 107.48


4.108033Pavlík Radek92ZS3VSDK
123456789101112131415161718
------------------ 0108.75 108.75 217.10
------------------ 0108.35 108.35


5.014026Pešek Michal92ZS2Kralupy
123456789101112131415161718
---------------2-- 2100.55 102.55 218.41
----2----2----2--- 6109.86 115.86


6.009083Strnad Jaroslav93ZS3USK Pha
123456789101112131415161718
-2--------------2- 4110.76 114.76 226.61
-----2------------ 2109.85 111.85


7.014027Šeba Patrik92ZS3Kralupy
123456789101112131415161718
----2------------- 2118.22 120.22 235.90
--------2--------- 2113.68 115.68


8.063021Křišťan Filip92ZS3Týniště
123456789101112131415161718
---------------2-- 2116.47 118.47 238.47
----2------------- 2118 120.00


9.066008Zverka Petr93ZS3Horš.Týn
123456789101112131415161718
-----2----------2- 4121.67 125.67 245.44
------------------ 0119.77 119.77


10.009027Sixta Tomáš92ZSUSK Pha
123456789101112131415161718
--2--2----2---222- 12141.97 153.97 304.63
--22----2------2-- 8142.66 150.66


11.066013Mller Vojta93ZSHorš.Týn
123456789101112131415161718
-----2-2---2---22- 10144.22 154.22 323.47
222-22-2---------- 12157.25 169.25


12.066010Birnbaum Josef93ZSHorš.Týn
123456789101112131415161718
--------50------2-- 52168.33 220.33 357.88
--------2--------- 2135.55 137.55


13.119022Janda Marek92ZSOlomouc
123456789101112131415161718
----50--2-------250- 104167.82 271.82 578.95
-----2-50-50------50- 152155.13 307.13


14.009051Ebel Matyáš92ZSUSK Pha
123456789101112131415161718
0 nest.
0 nest.


výsledky v pdf

výsledky v excelu

FREE Litovelská jízda 2013

větší video