mtb, triatlon, běh, výsledky

detailní výsledky závodu

Sušické slalomy, 3. ČP žáků - Sušice [ 20.05.06 ]

C1 - 20.05.06

1.023060Kuna Alois88DS2+SK VS ČB
123456789101112131415161718
------------------ 093.29 93.29 188.61
------------------ 095.32 95.32


2.057047Šťastný Jan70VM3Obal Pce
123456789101112131415161718
-2---------------- 298.62 100.62 196.22
------------------ 095.6 95.60


3.034025Nováček Michal772+Hubertus
123456789101112131415161718
------------------ 097.99 97.99 198.18
------------------ 0100.19 100.19


4.080008Jícha Dušan822So Písek
123456789101112131415161718
------------------ 0101.59 101.59 203.30
-------------2---- 299.71 101.71


5.009152Říha Martin92ZS2USK Pha
123456789101112131415161718
------------------ 0102.35 102.35 204.34
------------------ 0101.99 101.99


6.001040Šálek Marek863Boh.Pha
123456789101112131415161718
----------------2- 2104.32 106.32 206.26
------------------ 099.94 99.94


7.119010Božek Radim92ZS2+Olomouc
123456789101112131415161718
--------2-2------- 4100.07 104.07 206.30
-----2------2----- 498.23 102.23


8.066012Dolejš Zdeněk89DS2Horš.Týn
123456789101112131415161718
------------------ 0103.26 103.26 206.39
------------------ 0103.13 103.13


9.066002Hojda Ladislav732Horš.Týn
123456789101112131415161718
------------------ 0102.47 102.47 208.03
-------2---------- 2103.56 105.56


10.057049Tatíček Miroslav85Obal Pce
123456789101112131415161718
------------------ 0105.7 105.70 209.03
------------------ 0103.33 103.33


11.133009Jordán František91DM2SKVeselí
123456789101112131415161718
--2--------------- 2103.49 105.49 210.92
----------2------- 2103.43 105.43


12.095002Větrovský Jiří66VM2Zbraslav
123456789101112131415161718
------------------ 0106.39 106.39 212.25
------------------ 0105.86 105.86


13.035019Kolovrátek Lukáš782Sláv.KV
123456789101112131415161718
-2---2--2--2---2-- 10102.26 112.26 213.40
------------------ 0101.14 101.14


14.066001Hojda Jakub93ZS3Horš.Týn
123456789101112131415161718
--2------2-------- 4103.22 107.22 214.70
--2---------2----- 4103.48 107.48


15.023103Šandl Lukáš833SK VS ČB
123456789101112131415161718
---2-222----2----- 10102.07 112.07 215.25
-2---------------- 2101.18 103.18


16.057069Kejklíček Tomáš803Obal Pce
123456789101112131415161718
2-------------2--- 4108.69 112.69 216.39
------------------ 0103.7 103.70


17.108033Pavlík Radek92ZS3VSDK
123456789101112131415161718
------------------ 0108.75 108.75 217.10
------------------ 0108.35 108.35


18.014026Pešek Michal92ZS2Kralupy
123456789101112131415161718
---------------2-- 2100.55 102.55 218.41
----2----2----2--- 6109.86 115.86


19.001024Lula Jiří74Boh.Pha
123456789101112131415161718
-2-----22----2---- 8104.8 112.80 218.68
------------------ 0105.88 105.88


20.042019Pechlát Hynek71VM2Sušice
123456789101112131415161718
-2---------------- 2105.88 107.88 218.70
------------------ 0110.82 110.82


21.080006Hrádek Petr872So Písek
123456789101112131415161718
------------------ 0112.19 112.19 219.46
------------------ 0107.27 107.27


22.030009Keller Miloslav62VM2VS Tábor
123456789101112131415161718
--------2--------- 2108.34 110.34 219.69
--2--------------- 2107.35 109.35


23.018001Keš Miroslav67VM3Veselí/L
123456789101112131415161718
------------------ 0109.75 109.75 221.04
------------------ 0111.29 111.29


24.036007Kubát Jiří59V2Klatovy
123456789101112131415161718
--2--------------- 2109.03 111.03 223.55
-2---------------- 2110.52 112.52


25.030003Habich Bohumil91DM3VS Tábor
123456789101112131415161718
------------------ 0111.93 111.93 224.60
-----2------------ 2110.67 112.67


26.009083Strnad Jaroslav93ZS3USK Pha
123456789101112131415161718
-2--------------2- 4110.76 114.76 226.61
-----2------------ 2109.85 111.85


27.042030Vadlejch Jan89DS3Sušice
123456789101112131415161718
------------------ 0113.09 113.09 227.11
---------------2-- 2112.02 114.02


28.036008Kubát Zdeněk62VM3Klatovy
123456789101112131415161718
-----2---2-------- 4112.17 116.17 229.29
------------------ 0113.12 113.12


29.066004Táborský Pavel723Horš.Týn
123456789101112131415161718
--2--------------- 2112.67 114.67 230.60
--------2---2----- 4111.93 115.93


30.066019Šimůnek Antonín90DM3Horš.Týn
123456789101112131415161718
------------2----- 2112.02 114.02 232.56
--222------------- 6112.54 118.54


31.023059Kuna Alois60V3SK VS ČB
123456789101112131415161718
-----2--2--------- 4114.06 118.06 235.01
-----2------2----- 4112.95 116.95


32.014027Šeba Patrik92ZS3Kralupy
123456789101112131415161718
----2------------- 2118.22 120.22 235.90
--------2--------- 2113.68 115.68


33.063021Křišťan Filip92ZS3Týniště
123456789101112131415161718
---------------2-- 2116.47 118.47 238.47
----2------------- 2118 120.00


34.034022Smetánka Radek76Hubertus
123456789101112131415161718
------------------ 0117.84 117.84 240.88
-----2--------2--2 6117.04 123.04


35.034020Mulač Oldřich61V3Hubertus
123456789101112131415161718
------------------ 0119.63 119.63 241.05
------------------ 0121.42 121.42


36.042036Bouzek Ondřej91DMSušice
123456789101112131415161718
----2------------- 2120.36 122.36 241.40
------------------ 0119.04 119.04


37.065026Krejčí Hynek783Roztoky
123456789101112131415161718
-2---------------- 2119.45 121.45 241.87
2----------------- 2118.42 120.42


38.042032Potužák Jan88DS3Sušice
123456789101112131415161718
--------2-----22-- 6116.39 122.39 243.71
----22---2----2--- 8113.32 121.32


39.052039Uhlík Jan78L.Žatec
123456789101112131415161718
-----2---2--2----- 6118.04 124.04 243.76
---2-------------- 2117.72 119.72


40.066008Zverka Petr93ZS3Horš.Týn
123456789101112131415161718
-----2----------2- 4121.67 125.67 245.44
------------------ 0119.77 119.77


41.030016Martinů Lukáš873VS Tábor
123456789101112131415161718
-----2-------2---- 4118.86 122.86 249.65
--2-2------------- 4122.79 126.79


42.033003Linhart Stanislav83Blovice
123456789101112131415161718
--------------2--- 2122.16 124.16 254.85
---2-2------------ 4126.69 130.69


43.030002Habich Bohumil61V3VS Tábor
123456789101112131415161718
----2------------- 2127.65 129.65 255.79
------------------ 0126.14 126.14


44.082002Cepek Marek94ZM3KVSPísek
123456789101112131415161718
--2-2------------- 4127.29 131.29 257.98
----2------------- 2124.69 126.69


45.013019Strnad Januš67VMNeoMi P.
123456789101112131415161718
------------------ 0128.44 128.44 264.38
-------------2---- 2133.94 135.94


46.065025Krejčí Antonín55V3Roztoky
123456789101112131415161718
------------------ 0130.27 130.27 264.59
--------2-------2- 4130.32 134.32


47.035007Dolejš Petr743Sláv.KV
123456789101112131415161718
--------------2--- 2130.72 132.72 269.06
----2---2---2---2- 8128.34 136.34


48.007012Malík Martin65VMTech.Pha
123456789101112131415161718
----2------------- 2137.72 139.72 275.05
------------------ 0135.33 135.33


49.121003Mrůzek Jakub95ZMKK Opava
123456789101112131415161718
----2------------- 2151.53 153.53 282.71
-----2------------ 2127.18 129.18


50.009027Sixta Tomáš92ZSUSK Pha
123456789101112131415161718
--2--2----2---222- 12141.97 153.97 304.63
--22----2------2-- 8142.66 150.66


51.066013Mller Vojta93ZSHorš.Týn
123456789101112131415161718
-----2-2---2---22- 10144.22 154.22 323.47
222-22-2---------- 12157.25 169.25


52.034024Sýkora Jaroslav61V3Hubertus
123456789101112131415161718
--2------2---2--2- 8138.05 146.05 334.13
--22-2-------2---- 8180.08 188.08


53.047048Jandáš Roman65VMKadaň
123456789101112131415161718
----2---2--------- 4156.04 160.04 356.17
---2-50---------22- 56140.13 196.13


54.066010Birnbaum Josef93ZSHorš.Týn
123456789101112131415161718
--------50------2-- 52168.33 220.33 357.88
--------2--------- 2135.55 137.55


55.048081Kočí Martin91DM3Klášter.
123456789101112131415161718
-------22--------- 4124.44 128.44 530.27
---22--50-50-5050-50-50- 30497.83 401.83


56.057020Šťastný Filip94ZMObal Pce
123456789101112131415161718
-22-2--50-------250- 108226.27 334.27 550.76
------------2---2- 4212.49 216.49


57.119022Janda Marek92ZSOlomouc
123456789101112131415161718
----50--2-------250- 104167.82 271.82 578.95
-----2-50-50------50- 152155.13 307.13


58.009051Ebel Matyáš92ZSUSK Pha
123456789101112131415161718
0 nest.
0 nest.


59.048068Volák Jaroslav90DM3Klášter.
123456789101112131415161718
0 nest.
0 nest.


60.034003Červenka Jaroslav64VM3Hubertus
123456789101112131415161718
0 nest.
0 nest.


61.042016Galuška Vladislav65VM3Sušice
123456789101112131415161718
0 nest.
0 nest.


62.035020Zach Richard793Sláv.KV
123456789101112131415161718
0 nest.
0 nest.


63.066011Wendl Miloslav783Horš.Týn
123456789101112131415161718
0 nest.
0 nest.


výsledky v pdf

výsledky v excelu

Red Bull NordiX 2013 - best trick

větší video