mtb, triatlon, běh, výsledky

detailní výsledky závodu

Sušické slalomy, 3. ČP žáků - Sušice [ 20.05.06 ]

K1 ženy - 20.05.06

1.014020Grossmannová Zdenka65VM1Kralupy
123456789101112131415161718
------------------ 095.01 95.01 191.60
-2---------------- 294.59 96.59


2.023123Vojtová Veronika90DM2+SK VS ČB
123456789101112131415161718
------------------ 095.73 95.73 192.61
------------------ 096.88 96.88


3.042023Benešová Martina862Sušice
123456789101112131415161718
------------------ 096.52 96.52 193.75
-----2------------ 295.23 97.23


4.007035Veselá Linda802Tech.Pha
123456789101112131415161718
---------------2-- 297.33 99.33 196.48
------------------ 097.15 97.15


5.012048Hamplová Eva92ZS2Dukla B.
123456789101112131415161718
------------------ 0101.87 101.87 202.61
------------------ 0100.74 100.74


6.080003Zástěrová Hana63VM2So Písek
123456789101112131415161718
------------------ 0101.84 101.84 203.09
------------------ 0101.25 101.25


7.026010Lagnerová Jana59V2Soběslav
123456789101112131415161718
------------------ 0100.7 100.70 203.42
------------------ 0102.72 102.72


8.042012Benešová Marie61V3Sušice
123456789101112131415161718
------------------ 0102.26 102.26 205.19
------------------ 0102.93 102.93


9.049030Zimová Marie92ZS2Roudnice
123456789101112131415161718
------------------ 0103.96 103.96 208.64
------------------ 0104.68 104.68


10.024007Pártlová Andrea88DS2Č.Kruml.
123456789101112131415161718
---------------22- 4103.27 107.27 208.74
------------------ 0101.47 101.47


11.080004Zástěrová Pavlína93ZS2So Písek
123456789101112131415161718
------------------ 0105.71 105.71 210.88
------------------ 0105.17 105.17


12.023116Štěpánová Tereza863SK VS ČB
123456789101112131415161718
--------2--------- 2103.14 105.14 210.95
-------------2---- 2103.81 105.81


13.009019Bustová Anna92ZS2USK Pha
123456789101112131415161718
-----2------------ 2105.31 107.31 211.35
------------------ 0104.04 104.04


14.042027Galušková Karolína95ZM3Sušice
123456789101112131415161718
-------------2---- 2105.22 107.22 213.41
---------------2-- 2104.19 106.19


15.001005Háková Jitka802Boh.Pha
123456789101112131415161718
------------------ 0106.32 106.32 214.10
------------------ 0107.78 107.78


16.133011Jordánová Pavlína92ZS2SKVeselí
123456789101112131415161718
------------------ 0109.89 109.89 218.45
---------------2-- 2106.56 108.56


17.042008Klačková Zuzana85Sušice
123456789101112131415161718
---------------2-- 2108.01 110.01 219.11
----2------------- 2107.1 109.10


18.121016Foltysová Denisa93ZS2KK Opava
123456789101112131415161718
-----------2--2--- 4108.6 112.60 219.17
------------------ 0106.57 106.57


19.038014Fišerová Lenka88DS3ČSAD Plz
123456789101112131415161718
---------------2-- 2108.98 110.98 220.06
------------------ 0109.08 109.08


20.019002Jančová Monika92ZS3Vlašim
123456789101112131415161718
--2--2------------ 4106.48 110.48 220.25
-----------------2 2107.77 109.77


21.057074Valíková Radka91DM3Obal Pce
123456789101112131415161718
------------------ 0112.27 112.27 222.51
------------------ 0110.24 110.24


22.023084Pokorná Iva852SK VS ČB
123456789101112131415161718
-2-----2---------- 4113.85 117.85 222.64
------------------ 0104.79 104.79


23.121014Valíková Barbora94ZM3KK Opava
123456789101112131415161718
----2------------- 2108.01 110.01 224.54
---------2-------- 2112.53 114.53


24.038020Zýková Barbora90DM3ČSAD Plz
123456789101112131415161718
-----2---------2-- 4108.41 112.41 225.87
-----2-2-------2-- 6107.46 113.46


25.049035Bendová Marie92ZS3Roudnice
123456789101112131415161718
-----------------2 2109.58 111.58 226.21
--2-2------------- 4110.63 114.63


26.133015Večerková Nina92ZS3SKVeselí
123456789101112131415161718
----2------------- 2114.06 116.06 228.00
-----2------------ 2109.94 111.94


27.030030Habichová Alena69VM3VS Tábor
123456789101112131415161718
-----2------------ 2114.73 116.73 230.16
------------------ 0113.43 113.43


28.001004Mondeková Hana783Boh.Pha
123456789101112131415161718
---2-----------2-- 4116.79 120.79 233.97
-----2------------ 2111.18 113.18


29.023014Dvořáková Hana90DM3SK VS ČB
123456789101112131415161718
---2-------------- 2115 117.00 234.32
---------------2-- 2115.32 117.32


30.065031Krejčová Kristýna91DM3Roztoky
123456789101112131415161718
---------------2-- 2114.87 116.87 236.16
----------22---2-- 6113.29 119.29


31.047013Černá Lucie773Kadaň
123456789101112131415161718
-----2-------2-2-- 6115.94 121.94 237.74
------------------ 0115.8 115.80


32.048072Tykalová Jana68VM3Klášter.
123456789101112131415161718
------------------ 0120.62 120.62 238.01
------------------ 0117.39 117.39


33.103018Sosnarová Michaela91DM3KK Brno
123456789101112131415161718
--------2------2-- 4124.22 128.22 238.68
------------------ 0110.46 110.46


34.009177Větrovská Aneta93ZS3USK Pha
123456789101112131415161718
------------------ 0123.19 123.19 242.69
------------2----- 2117.5 119.50


35.034007Vanková Markéta793Hubertus
123456789101112131415161718
------------------ 0119.47 119.47 246.60
--2----2-2-------- 6121.13 127.13


36.001033Hochheim Kristýna91DM3Boh.Pha
123456789101112131415161718
-------2---------- 2120.45 122.45 247.08
-----2-22---2--2-- 10114.63 124.63


37.023015Dvořáková Jitka94ZM3SK VS ČB
123456789101112131415161718
------2----------- 2119.86 121.86 247.41
--2--------------- 2123.55 125.55


38.052024Klementová Silvie94ZM3L.Žatec
123456789101112131415161718
--2--------------- 2120.53 122.53 251.22
--222------------- 6122.69 128.69


39.036030Šrámková Michaela91DM3Klatovy
123456789101112131415161718
-------2---2------ 4123.15 127.15 253.33
---------------2-- 2124.18 126.18


40.036009Kubátová Anna60V3Klatovy
123456789101112131415161718
-2---2-------2---- 6124.44 130.44 253.87
------------------ 0123.43 123.43


41.043010Svobodová Jana93ZS3Č.Lípa
123456789101112131415161718
---------------22- 4121.66 125.66 255.10
---2-2--2--------- 6123.44 129.44


42.043033Chodurová Dana92ZSČ.Lípa
123456789101112131415161718
--------------222- 6126.79 132.79 265.96
--2--2------22---- 8125.17 133.17


43.026011Holá Markéta90DMSoběslav
123456789101112131415161718
-2-------------2-- 4141.22 145.22 290.15
--------2---2----- 4140.93 144.93


44.026012Holá Šárka88DSSoběslav
123456789101112131415161718
----22-----2------ 6143.97 149.97 294.90
------------2--22- 6138.93 144.93


45.009024Soukupová Markéta92ZSUSK Pha
123456789101112131415161718
------------------ 0136.3 136.30 306.89
------2------2-2-- 6164.59 170.59


46.036022Veselá Jitka91DMKlatovy
123456789101112131415161718
--------2------22- 6163.11 169.11 311.06
-----2---------2-- 4137.95 141.95


47.121083Mrůzková Kateřina95ZMKK Opava
123456789101112131415161718
-2--22-50-------2-- 58130.41 188.41 312.74
------------------ 0124.33 124.33


48.065052Krejčová Vlasta66VMRoztoky
123456789101112131415161718
-2-2------2-2----- 8154.94 162.94 317.82
----2--2----2----- 6148.88 154.88


49.036025Šrámková Iva67VMKlatovy
123456789101112131415161718
------------------ 0155.14 155.14 318.64
-2-22---2-2---2--- 12151.5 163.50


50.047004Hausnerová Milena94ZMKadaň
123456789101112131415161718
-----------2----2- 4161.91 165.91 325.54
------------------ 0159.63 159.63


51.121037Mrázková Mária96PZKK Opava
123456789101112131415161718
--2-2--2---------- 6182.56 188.56 352.48
2--2--------2--22- 10153.92 163.92


52.065011Kreisslová Eliška95ZMRoztoky
123456789101112131415161718
-----2--2----2-2-- 8162.39 170.39 362.03
--2--2-22------2-- 10181.64 191.64


53.014030Koblencová Anna97PZKralupy
123456789101112131415161718
-2-222-50---2-222-- 66141.27 207.27 367.20
------2-----2--2-- 6153.93 159.93


54.023143Zavoralová Eva91DMSK VS ČB
123456789101112131415161718
-----2-----2---22- 8164.02 172.02 379.37
---250-----------2- 54153.35 207.35


55.052069Blažeková Radka92ZSL.Žatec
123456789101112131415161718
--2--2-5050--2---250- 158155.8 313.80 473.68
--2--------2-22--- 8151.88 159.88


56.119155Bučkevičová Věra94ZMOlomouc
123456789101112131415161718
22--22-50------2250- 112152.24 264.24 520.05
----2--50-----2--502 106149.81 255.81


57.009052Koušová Tereza92ZSUSK Pha
123456789101112131415161718
2--250--50--22----502 160140.91 300.91 547.82
-2-------------22- 6240.91 246.91


58.063045Svobodová Veronika89DSTýniště
123456789101112131415161718
----502--5050-50---22- 206148.92 354.92 568.36
----50-2--2-----22- 58155.44 213.44


59.119089Krausová Tereza93ZSOlomouc
123456789101112131415161718
-2-250--50-----2---- 106188.94 294.94 577.80
-2--2--50-------250- 106176.86 282.86


60.009057Sušánková Markéta92ZSUSK Pha
123456789101112131415161718
--2-22-50------2502- 110142.81 252.81 578.20
----2--225050----250- 158167.39 325.39


61.Štětková Andrea69VMSK VS ČB
123456789101112131415161718
-----2-505022-----502 158158.11 316.11 622.09
--502502-2-------22- 110195.98 305.98


62.047012Lišková Monika93ZSKadaň
123456789101112131415161718
-2502502-50-2-22--50502 264175.23 439.23 730.67
--2-502--502--2--22- 112179.44 291.44


63.047016Pospíchalová Simona97PZKadaň
123456789101112131415161718
zvrhl
--2-2---50-2-2-250502 162177.79 339.79


64.121043Rousková Hana98PZKK Opava
123456789101112131415161718
0 nest.
0 nest.


65.121039Rousková Martina98PZKK Opava
123456789101112131415161718
0 nest.
0 nest.


66.026017Podlahová Kamila76Soběslav
123456789101112131415161718
0 nest.
0 nest.


67.023077Pavelcová Eliška89DS3SK VS ČB
123456789101112131415161718
0 nest.
0 nest.


68.009053Kudějová Kristýna88DS2USK Pha
123456789101112131415161718
0 nest.
0 nest.


69.035004Hojdová Gabriela782+Sláv.KV
123456789101112131415161718
0 nest.
0 nest.


výsledky v pdf

výsledky v excelu

LOAP Cup 2013 - Trnávka

větší video