mtb, triatlon, run, skiing, cycling, canoe, marathon

race analysis

MČR žáků ve slalomu - Paraplíčko [ 06.09.14 ]

K1 muži - 06.09.14

1.019022ŠANDA Petr00ZS2Vlašim
123456789101112131415161718
2--2-------------- 491.57 95.57 88.41
------------------ 088.41 88.41


2.049042ZIMA Tomáš00ZS2Roudnice
123456789101112131415161718
-2--2----2------2- 885.97 93.97 89.19
2----------------- 287.19 89.19


3.045019HEGER Vojtěch00ZS2KVS HK
123456789101112131415161718
------------------ 090.47 90.47 90.47
-------------2---- 289.61 91.61


4.014043BÁRTA Jan00ZS2Kralupy
123456789101112131415161718
2----------------- 291.79 93.79 93.56
-----------------2 291.56 93.56


5.012061ZAPLETAL Mikuláš00ZS2Dukla B.
123456789101112131415161718
----------------2- 292.02 94.02 94.02
2--2-------------- 490.88 94.88


6.009102ZEMAN Vojtěch00ZS2USK Pha
123456789101112131415161718
---22--2--22-2---- 1292.61 104.61 94.08
----------2------- 292.08 94.08


7.061003BOHATÝ Karel01ZS2Třebech.
123456789101112131415161718
--------2-2-2----- 697.81 103.81 95.11
------------------ 095.11 95.11


8.009058BERAN Václav00ZS2USK Pha
123456789101112131415161718
-2-----2---------- 495.61 99.61 95.31
------------------ 095.31 95.31


9.010099ŠPALEK Matěj00ZS2Benátky
123456789101112131415161718
2------------2---- 496.5 100.50 96.11
-------------2---- 294.11 96.11


10.119097NOVOTNÝ Petr00ZS2Olomouc
123456789101112131415161718
-----------2------ 296.28 98.28 96.70
-----------------2 294.7 96.70


11.009080RAŠKA Tomáš01ZS2USK Pha
123456789101112131415161718
-2-----2--2------- 6101.85 107.85 101.64
------------------ 0101.64 101.64


12.010008VEVERKA Lukáš02ZM3Benátky
123456789101112131415161718
--------2--------- 2101.29 103.29 103.29
-------2---------2 4102.7 106.70


13.119116GABRLÍK Tomáš00ZS3Olomouc
123456789101112131415161718
----------2-2----- 4105.75 109.75 103.48
------------------ 0103.48 103.48


14.023054KREJČÍ Jakub02ZM2SKVS ČB
123456789101112131415161718
2--2---------22--- 898.7 106.70 103.58
-----------2-2--2- 697.58 103.58


15.052003MILYÁN David01ZS2L.Žatec
123456789101112131415161718
-------22--------2 6105.58 111.58 104.24
------------------ 0104.24 104.24


16.052027NESNÍDAL Radek00ZS2L.Žatec
123456789101112131415161718
------------------ 0105.04 105.04 105.04
-------2---------- 2105.47 107.47


17.119094RUDORFER Martin03ZM3Olomouc
123456789101112131415161718
------2-2---2----- 6114.52 120.52 107.04
------------------ 0107.04 107.04


18.049019KLEMENT Maxim01ZS2Roudnice
123456789101112131415161718
2-------2--2------ 6103.12 109.12 107.73
---2---2---------- 4103.73 107.73


19.009114KRÁL Adam03ZM2USK Pha
123456789101112131415161718
-2-------2--22---2 10106.34 116.34 108.05
-------2--2------- 4104.05 108.05


20.023162REZEK Tomáš01ZS2SKVS ČB
123456789101112131415161718
----2-2-----2----- 6105.47 111.47 108.38
-------2----2----- 4104.38 108.38


21.048024LERCH Eduard02ZM2Klášter.
123456789101112131415161718
-------22-2------- 6106.62 112.62 108.38
-2-----------2---- 4104.38 108.38


22.063058ŠVAGR Rostislav00ZS3Týniště
123456789101112131415161718
-------2---------- 2106.39 108.39 108.39
-------2------2--2 6104.15 110.15


23.009106LHOTA Kryštof02ZM2USK Pha
123456789101112131415161718
---2---2--------2- 6106.74 112.74 109.04
-2-----2-----2---- 6103.04 109.04


24.129002ROUČA Samuel02ZM3TJ Šumperk
123456789101112131415161718
-------2----2----- 4106.46 110.46 109.50
-----------------2 2107.5 109.50


25.009084PŘÍHODA Lukáš01ZS2USK Pha
123456789101112131415161718
-------2----222--- 8106.04 114.04 109.78
-------2-2-------- 4105.78 109.78


26.009121MAJER Kryštof01ZS3USK Pha
123456789101112131415161718
-------2---------- 2108.32 110.32 110.32
----2------------- 2110.51 112.51


27.009012ELIÁŠ Ondřej00ZS3USK Pha
123456789101112131415161718
------------------ 0110.98 110.98 110.98
------------------ 0112.27 112.27


28.119139KRATOCHVÍL Martin03ZM3Olomouc
123456789101112131415161718
----2----2-------- 4112.24 116.24 111.39
-------2---------- 2109.39 111.39


29.060040KOBLÍŽEK Daniel00ZS3Trutnov
123456789101112131415161718
-------2--2-22--22 12124.72 136.72 111.48
---2-------------- 2109.48 111.48


30.119018FIALA Jakub01ZS3Olomouc
123456789101112131415161718
-------2---------- 2109.79 111.79 111.79
-2-----2-----2---- 6108.6 114.60


31.133063IVÁNEK Roman02ZM3SKVeselí
123456789101112131415161718
------------------ 0112.15 112.15 112.15
----2--22--------- 6109.17 115.17


32.010102SAHULA Matěj03ZM3Benátky
123456789101112131415161718
------2-----2----- 4114.81 118.81 112.35
-------2---------- 2110.35 112.35


33.132010TICHÝ Štěpán00ZS2Val.Mez.
123456789101112131415161718
-2-2--22--2------- 10102.42 112.42 112.42
------2----2-2--2- 8104.68 112.68


34.112009SNOPEK Vladimír01ZS3Kroměříž
123456789101112131415161718
-2---------------- 2112.12 114.12 112.55
-------------2---- 2110.55 112.55


35.066029HORAL Vojtěch02ZM2Horš.Týn
123456789101112131415161718
-------------2---- 2111.59 113.59 112.69
----------2------- 2110.69 112.69


36.103036MATĚJÍČEK Vojtěch02ZM3KK Brno
123456789101112131415161718
----------2-2----- 4116.59 120.59 112.92
-------2---------- 2110.92 112.92


37.133065PEŠEK Tibor00ZS3SKVeselí
123456789101112131415161718
2------2--2------- 6131.02 137.02 112.97
-------2-2-------- 4108.97 112.97


38.009123HOUSKA Jan01ZS3USK Pha
123456789101112131415161718
2------2---------- 4109.21 113.21 113.21
----2-----2------- 4111.56 115.56


39.082011MALÝ Filip02ZM3KVSPísek
123456789101112131415161718
-------2----2----- 4111.86 115.86 113.35
------22---------- 4109.35 113.35


40.119159JANÚ Filip02ZM3Olomouc
123456789101112131415161718
-------2----2----- 4109.6 113.60 113.60
-------2-----2---- 4110.54 114.54


41.012055KIRCHNER David02ZM2Dukla B.
123456789101112131415161718
-------50---------- 50116.07 166.07 113.71
-2---------------2 4109.71 113.71


42.011017ŠULC Karel00ZS3KK Brand
123456789101112131415161718
---------2--2----- 4110.18 114.18 114.18
2--22--2--2------- 10114.77 124.77


43.009009JAKL Vincent01ZSUSK Pha
123456789101112131415161718
-2--------2------- 4117.56 121.56 116.05
-------2---------- 2114.05 116.05


44.011018ŠOREL Martin01ZS3KK Brand
123456789101112131415161718
2--------2-------2 6114.61 120.61 116.82
------2----------- 2114.82 116.82


45.010103STRÁNSKÝ Daniel02ZM3Benátky
123456789101112131415161718
-------2---------- 2114.93 116.93 116.93
------------------ 0117.48 117.48


46.060055VESELÝ František00ZS3Trutnov
123456789101112131415161718
2-----2-2--2-----2 10109.81 119.81 117.18
------22---------- 4113.18 117.18


47.066018WENDL Samuel03ZM3Horš.Týn
123456789101112131415161718
---2---2---------2 6114.53 120.53 117.22
-------2---2------ 4113.22 117.22


48.023042STANOVSKÝ Vojtěch02ZM3SKVS ČB
123456789101112131415161718
------------------ 0117.38 117.38 117.38
2------22--2------ 8113.15 121.15


49.009118URBÁNEK Matyáš02ZM3USK Pha
123456789101112131415161718
---2--2-502-------- 56119.17 175.17 118.59
2----------------- 2116.59 118.59


50.129017ŘEZNÍK Vít01ZS3TJ Šumperk
123456789101112131415161718
-------2-----2---- 4120.51 124.51 118.74
-2---------------- 2116.74 118.74


51.009104WEISL Martin02ZM3USK Pha
123456789101112131415161718
2-----2-----2----- 6118.38 124.38 119.96
2----------------- 2117.96 119.96


52.009134FRENCL Josef02ZM3USK Pha
123456789101112131415161718
------------------ 0120.34 120.34 120.34
22--2--2---------2 10118.07 128.07


53.024053KLEIN Pavel01ZS3Č.Kruml.
123456789101112131415161718
--2----2---------2 6129.77 135.77 120.42
----2---2--------- 4116.42 120.42


54.009122DUŘT Vojtěch03ZM3USK Pha
123456789101112131415161718
------------------ 0120.94 120.94 120.94
------------------ 0126.72 126.72


55.066027TÁBORSKÝ Jan03ZM3Horš.Týn
123456789101112131415161718
-------2----2----- 4117.42 121.42 120.95
-2--------2----2-- 6114.95 120.95


56.064003HRNČÍŘ Vojtěch01ZS3Vys.Mýto
123456789101112131415161718
------2----------- 2119.66 121.66 121.63
---2-------------2 4117.63 121.63


57.023077TESAŘ Vojtěch02ZM3SKVS ČB
123456789101112131415161718
------------------ 0125.1 125.10 122.75
----2-2-2-----2--- 8114.75 122.75


58.119086LÁTAL Filip01ZS3Olomouc
123456789101112131415161718
------------------ 0123.43 123.43 123.43
---------50-------2 52127.37 179.37


59.119143HALA Jiří02ZMOlomouc
123456789101112131415161718
-----------------2 2127.2 129.20 123.89
------------------ 0123.89 123.89


60.133035CHABIČA Pavel01ZS3SKVeselí
123456789101112131415161718
-2---------------- 2122.43 124.43 124.21
-2---------------- 2122.21 124.21


61.119124PROCHÁZKA Vojtěch02ZM3Olomouc
123456789101112131415161718
----2---------2--- 4127.14 131.14 124.22
------------------ 0124.22 124.22


62.011027KOLÁČEK Petr01ZS3KK Brand
123456789101112131415161718
--------------2--50 52126.18 178.18 124.26
-----------------2 2122.26 124.26


63.043013VAVERA Jan00ZS3Č.Lípa
123456789101112131415161718
-22----2--2--2---- 10132.76 142.76 124.68
------2------2---- 4120.68 124.68


64.009126KADLEC Filip03ZM3USK Pha
123456789101112131415161718
------22---------- 4128.42 132.42 125.36
2-----2--2-------- 6119.36 125.36


65.009127ONDRUŠ Mikuláš03ZMUSK Pha
123456789101112131415161718
----2--2---------- 4122.03 126.03 126.03
-2----2-22---2---- 10132.13 142.13


66.112045PLACHÝ Vojtěch01ZS3Kroměříž
123456789101112131415161718
-2----------22---- 6121.45 127.45 127.45
2--------2-------- 4128.57 132.57


67.014032ZEMAN Jakub00ZS3Kralupy
123456789101112131415161718
-------------2---2 4127.16 131.16 128.16
---------2-----2-- 4124.16 128.16


68.132020HENDRYCH Tomáš00ZS3Val.Mez.
123456789101112131415161718
------2222-------- 8121.98 129.98 129.98
2-------50-2------- 54130.71 184.71


69.024011KOUDELKA Samson02ZM3Č.Kruml.
123456789101112131415161718
--------2---2----- 4132.64 136.64 130.42
------------------ 0130.42 130.42


70.064042VENIGER Jan00ZSVys.Mýto
123456789101112131415161718
22-2--2-2----2---2 14116.62 130.62 130.62
--2----50-2------2- 56112.27 168.27


71.045016REJMAN Petr01ZSKVS HK
123456789101112131415161718
999 DNF 130.64
2---2-2---2------- 8122.64 130.64


72.014012ZEMAN Matěj02ZM3Kralupy
123456789101112131415161718
-2-2-------------- 4131.08 135.08 131.17
--------2---2----- 4127.17 131.17


73.023041PÍPAL Zbyněk03ZM3SKVS ČB
123456789101112131415161718
-2-2-------------- 4136.23 140.23 131.67
----------2------- 2129.67 131.67


74.129016HOLÍNEK Svatopluk01ZSTJ Šumperk
123456789101112131415161718
-250---2----22--2-- 60143.12 203.12 133.84
------22---------- 4129.84 133.84


75.017022PŠENIČKA Václav01ZS3Rakovník
123456789101112131415161718
-2---------------- 2132.82 134.82 134.82
------------------ 0144.38 144.38


76.121003ULITZKA Oliver02ZMKK Opava
123456789101112131415161718
------------------ 0139.53 139.53 135.38
------2---2------- 4131.38 135.38


77.061025MAREK Matyáš03ZMTřebech.
123456789101112131415161718
-------------2---2 4132.45 136.45 136.45
----2------------- 2134.85 136.85


78.023134ŠEDIVÝ Jan03ZMSKVS ČB
123456789101112131415161718
------------------ 0137.38 137.38 136.65
---2----------2--2 6130.65 136.65


79.119142HRADEC Matěj03ZM3Olomouc
123456789101112131415161718
-2----2----------- 4134.03 138.03 137.19
22-------2-------- 6131.19 137.19


80.064002HRNČÍŘ Jakub01ZSVys.Mýto
123456789101112131415161718
-------50---------- 50129.66 179.66 139.11
-------222---2---- 8131.11 139.11


81.014068HRŇÁK Vojtěch02ZMKralupy
123456789101112131415161718
-2------2----22--- 8131.73 139.73 139.73
-------5050--------- 100129.9 229.90


82.014033NOVÁK Michal03ZMKralupy
123456789101112131415161718
-2----22--2------2 10146.98 156.98 140.18
------2-22--2----- 8132.18 140.18


83.129010VÁCHA Ondřej01ZS3TJ Šumperk
123456789101112131415161718
----2--50---------- 52132.7 184.70 140.82
-------2---------- 2138.82 140.82


84.129026SURMA Tadeáš01ZSTJ Šumperk
123456789101112131415161718
------222--------- 6139.75 145.75 145.75
22-2------50------- 56140.81 196.81


85.129013WALTER David01ZS3TJ Šumperk
123456789101112131415161718
50------2--2------- 54142.79 196.79 150.16
-2----222--------- 8142.16 150.16


86.132004ŠVÉDA Daniel02ZMVal.Mez.
123456789101112131415161718
-2------2--2------ 6146.55 152.55 152.55
2------2-2-------- 6146.55 152.55


87.023069ČIHOVSKÝ Šimon03ZMSKVS ČB
123456789101112131415161718
------------2----- 2152.76 154.76 153.33
--------2-2------- 4149.33 153.33


88.103026BERGMANN Ondřej00ZSKK Brno
123456789101112131415161718
-2--2---222--2--2- 14142.06 156.06 156.06
---2---22-50------- 56131.86 187.86


89.024066ČEPELÁK František02ZMČ.Kruml.
123456789101112131415161718
--50---2---2------- 54150.01 204.01 164.68
------2222--2----2 12152.68 164.68


90.024055MAREŠ Jakub03ZMČ.Kruml.
123456789101112131415161718
-------22-22-2-2-2 14154.43 168.43 168.43
-50----222-2-22---2 64186 250.00


91.132005SMILEK Jiří03ZMVal.Mez.
123456789101112131415161718
-------2-2-------- 4165.07 169.07 169.07
999 DNS


92.132022NACHTIGAL Richard00ZSVal.Mez.
123456789101112131415161718
-2-----2-----2---50 56119.29 175.29 175.29
999 DNS


93.119172ŠVARC Adam01ZSOlomouc
123456789101112131415161718
-2----22-----2---2 10170.66 180.66 180.66
-2-2---2222---2--- 14169.35 183.35


94.119088VYMĚTAL Tadeáš03ZMOlomouc
123456789101112131415161718
22502---50--250----2- 160144.52 304.52 273.41
-2-----502-2--2---50 108165.41 273.41


95.119012SOUČEK Tomáš03ZMOlomouc
123456789101112131415161718
999 DNS 999.00
999 DNS


96.119163VYBÍRAL Ondřej01ZSOlomouc
123456789101112131415161718
999 DNS 999.00
999 DNS


97.133010ZUBALÍK Martin02ZMSKVeselí
123456789101112131415161718
999 DNS 999.00
999 DNS


98.042008ŠVEJD Jakub01ZS3Sušice
123456789101112131415161718
999 DNS 999.00
999 DNS


pdf results

excel results

NKZ České Vrbné 2013

větší video